Recent Post

www.tabthief.blogspot.in

WHITE LION - When the Children Cry

CHORDS USING HERE, 
G-300023 | D9-0120XX | Em-000220 | Bm7-20202X | Csus-010330G      D9
Little child 
Em       Bm7
dry your crying eyes 
Csus    G
how can I explane 
    Em            D9
the feel you feel inside 
      G         D9
cause you where born 
Em        Bm7
into this evel world 
Csus           G
where man this killing man 
    Em               D9
and noone knows just why 

C            Bm7
what have we become 
Em             Bm7
just look what we have done 
Csus     G
all that we destroid 
Em             D9
you must build again 

         Em       Bm7
When the children cry 
         Csus    G
let them know we try 
         Em       Bm7
when the children sing 
         Csus      D9
then the new world begins 

G      D9
Little child 
Em       Bm7
you must show the way 
Csus  G
to a  better day 
    Em      D9
for all the young 
G               D9
cause you where born 
Em      Bm7
for the world to see 
Csus    G
that we all can live 
     Em       D9
with love and peace 

C       Bm7
No more presidents 
Em          Bm7
and all the worse will end 
Csus   G
one united world 
Em    D9
under god 

         Em       Bm7
When the children cry 
         C       G
let them know we try 
         Em        Bm7
when the children sing 
         C         D9
then the new world begins 

Lead: (G,D9,Em,Bm7,C,G,Em,D9)2x
FULL                         FULL         1/2
E|-----------*T------T----|--------17^---(17)--|19^-(19)-19-19-20^-20-20-19-20|
B|----15^----17-15---17-13|-p-12---------------|------------------------------|
G|--X---------------------|--------------------|------------------------------|
D|X-----------------------|--------------------|------------------------------|
A|------------------------|--------------------|------------------------------|
E|------------------------|--------------------|------------------------------|
* when taping the 17th, hold bend while taping releasing back to the 15th


     FULL                   FULL                FULL           FULL FULL
E|19----------------------|------------------------|------------------------|
B|---20^-(20)-19-17-------|-15^--15p13p12--13p12---|-----------15^--15^--15-|
G|----------------19-(19)\|---------------------14^|-(14)-p-12--------------|
D|------------------------|------------------------|------------------------|
A|------------------------|------------------------|------------------------|
E|------------------------|------------------------|------------------------|

E|------------------------||
B|-(15)\---DIVE-----------||
G|------\--WITH-----------||
D|-------\-WHAMMY---------||
A|--------\-BAR-----------||
E|------------------------||
C Bm7 What have we become Em Bm7 just look what we have done Csus G all that we destroid Em D9 you must build again C Bm7 no more presidents Em Bm7 and all the worse will end Csus G one united world Em D9 under god Em Bm7 When the children cry Csus G let them know we try Em Bm7 when the children fight Csus G let them know it ain't right Em Bm7 when the children pray Csus G let them know the way Em Bm7 cause when the children sing Csus D9 then the new world begins
WHITE LION - When the Children Cry WHITE LION - When the Children Cry Reviewed by Rahul Dhatwalia on 8:39 AM Rating: 5

No comments:

Powered by Blogger.