Recent Post

www.tabthief.blogspot.in

guitar chords of rona chad ta - mail karade rabba

Movie - Mail karade rabba
Song - Maahi Maahi(Aatif Aslam)


ISILIE ASSI RONA CHADD TAAA.......


{Bm*= 232422}


INTRO:-


  Bm             Bm*         A          G




e|-----------------------------------9s10p9-----------------------
b|------3--5--5s7--5s7--5s7-5-7--5-7-------8s10--------8s10--5----
g|---6-----------6---------6--------------------9-7p5h7-----------
d|----------------------------------------------------------------
a|----------------------------------------------------------------
e|----------------------------------------------------------------




Bm A
saadi jindagi ch khhas teri taan
G A Bm
Sochi na tenu dilo kaad taan
Bm A
loki hanju aa ch pad lende naam
Bm A F# G F# A Bm Bm*
iss lie aasi rona chha dita




CHORUS


Bm F#
Maahi maahi dil mera kehnda rehnda hai
A G
dard judai wala sehnda rehnda hai


Bm Bm* A G F# Bm
Maahi ve


Bm G A
Assi darda nu sine ch chuppaana sikh leya
A F# G F# A Bm
Tanhayiaan ni vi gal naal launa sikh leya
Bm A
liye darrde na kade tera naam
G A Bm
we hak bhi jatona chaad dita
guitar chords of rona chad ta - mail karade rabba guitar chords of rona chad ta - mail karade rabba Reviewed by Rahul Dhatwalia on 11:03 PM Rating: 5

3 comments:

  1. i think its
    Am G F

    ReplyDelete
  2. its c f# e and b

    intro part goes like this


    Intro (play two times)
    E|---------------------------------9/10-9-7------------5/7------|
    B|--------7---7---7---7---7---7-------------5---------------5--|
    G|-6-7-9---9---9---9---9---9------------------7-6-7-----------|

    ReplyDelete

Powered by Blogger.