Recent Post

www.tabthief.blogspot.in

Waada - Raeth (Tabs, Chords and Solo)

Song- WAADA
Artist- Raeth
ALBUM: Yaadoin ke Sang


THESE CHORDS ARE FEATURED ON "RAETH OFFICIAL FACEBOOK PAGE".




There are two guitar, one plays rhythm part like D, A Chords and Another plays Lead part and Riff.
Use Clean Lead [Electric Guitar]

Chords Used:
D*: xx023x
D**: x04230



Intro-

[Strumm D* over Intro continuously]

E-------9-10--10-9-5/7-5(5)------s7-5----------------|
B--7-10--------------------7-10-------7s8(8)-8p7-----|
G----------------------------------------------------|

E----------------9-10-10--10-9-6/7--5(5)-------s7-5--|
B-/5--3(3)--7-10-------------------------7-10--------|
G----------------------------------------------------|

E-----------------------2-3p2------------------------|
B--7s8-8p7--5-3(3)--3-5------------------------------|
G----------------------------------------------------|


Riff - 1    [Play Over Verse]

[Strumm D* over Intro continuously]

E-----0-----0-----5---|
B-------3-----3-------|
G--2------2-----2-----|
D--0------------------|

Hmmmmmmm........Hmmmmmmmmmm........
Hmmmmmmm...........Hmmmmmmmmmmmmm.....

Verse-1

Kyuin hai nami, Teri aankhoin main
Dhoondluin main tujhe apni baoin main
Zindagi ye saari tum pe baar du
Sare jahan ka tumko pyaar du


Chorus

Riff - 2    [Play D* chord simultaneously with Riff]

E----10~~~--10~~--12~~--12~~---|
B----8-~~~--10~~--10~~--12~~---|

De do mujhey, tum apna gam
De dun tumhe, main khushiyaan sabhi

D*  D  D**  A
Main raat din jalta raha
D  D**  A
Teri yaad main tadapta raha
D  D**  A
Deta raha tum ko sada,  aur
D D** A
pyaar main yeh kehta raha


D*--D--D**-----------D--D2
Oh ho ho ho....oh ho ho ho
A [at end]
hooooooooooooooo


SOLO    [Play D* over solo]


E--------------------------------------------------------|
B--------------------------------------------------------|
G--7h9--9/11--(11)---7h9--9------------------------------|
D-----------------------------12~--11~--9~--7~~---7s9--7-|
A--------------------------------------------------------|


E------------------------|
B--(7)-7h8/10--10/12/10--|
G--(7)-7--/9----9/11/9---|
D------------------------|
A------------------------|

E-------------------------------------|
B--12--10--8--7-7-7h8(8)---8h10(10)---|
G--12--9---7--7-7-7------7------------|
D-------------------------------------|

E-------------------------------------------|
B--10-8-7-----------------------------------|
G---------9-7---7---------------------------|
D-------------11--12-11-9-7-----------------|
A--------------------------10-9-7-----------|
E---------------------------------10--9s10--|


VERSE 2 [Same as verse 1]

CHORUS

OUTRO  [Same as Intro Part but...]

    end with 
        B|-5-3--
Waada - Raeth (Tabs, Chords and Solo) Waada - Raeth (Tabs, Chords and Solo) Reviewed by Rahul Dhatwalia on 10:43 PM Rating: 5

14 comments:

  1. nice work buddy... ur lead part is better... jst improvise more...
    well chords r from family D A B...
    gud one !!

    ReplyDelete
  2. Post your video on you tube.

    ReplyDelete
  3. AnonymousJune 21, 2011

    wht is the meaning of (3).. i mean under brackets??

    ReplyDelete
  4. (3) means; it's optional, if you're using Electric guitar (else you can play it soft).

    ReplyDelete
  5. AnonymousJuly 29, 2011

    thnks a lot guyyzz

    ReplyDelete
  6. what does s meant there....??????

    ReplyDelete
  7. what does s mean?

    ReplyDelete
  8. (S) means slide..

    ReplyDelete
  9. what does d* and d** imply?

    ReplyDelete
  10. what does d * and d ** mean?

    ReplyDelete
  11. This Tab and Video of the same (on youtube) is featured by The Raeth band - Official Facebook Page
    \m/

    ReplyDelete

Powered by Blogger.