Recent Post

www.tabthief.blogspot.in

P A R I K R A M A - But it Rained (Tabs, Chords and Solo)

SONG: But it Rained
ARTIST: p a r i k r a m a
ALBUM: But it Rained




CHORDS used: 
    eBGDAE
------------
D5: xx775x
A5: xxx775
E5: xx997x
B5: xxx997
E:  001220
Bm: 234422
A:  02220x
Bb: 244422


Modified:
Saturday, July 09, 2011

  • 2nd Solo part!



 [Guitar INTRO Part]
 e|--17b19b17-(17)-16-------------]
 B|--(S L O W)-------17-19----15--]
 G|------------------------16-----]
 D|-------------------------------]
 A|-------------------------------]
 E|-------------------------------] x2
....(E)....................(Bm)......


 [Violin INTRO Part]
 e|------------------------|-------|
 B|--17-16--17-16-------16-|14-----|
 G|---------------18--16---|-------|
 D|-----------------18-----|-------|
 A|------------------------|-------|
 E|------------------------|-------|
...(C#m).........(Bb)......|(A)......


[E]Wrapped in a polythene,[A] tucked away safe in my[E] mind
a [E]little goodbye, maybe, or[A] just a [Bb]passing smile[E]


The birds[E] fly away to the southern [A]sky still searching for home[E]
a [E]bunch o' paper flowers, or a little[A] boy left[Bb] all alone[E]
Can[E] somebody hear me, I'm[Bm] screaming from so[A] far away[E]
morning[E] who'll calm you now,[A] the evening's[Bb] eclipsed again[E]


Well does{D5}[D] life get{A5}[A] any{E5}[E] better
more{D5}[D] yesterdays{A5}[A] than{E5}[E] todays
How I{D5}[D] thought the {A5}[A]sun would shine{E5}[E] tommorow
But it{B5}[Bb] rained...


They[E] justified the cause for which Daddy[A] might give up his life[E]
,it's been[E] so long, so long a [A]time but still[Bb] I miss Daddy[E] at night
The ache [E]is long gone but[Bm] the never keeps[A] staring [E]along
the waters[E] in the seas are [A]high, and all the[Bb] sand castles have[E] drowned


Well does{D5}[D] life get{A5}[A] any{E5}[E] better
more{D5}[D] yesterdays{A5}[A] than{E5}[E] todays
How I{D5}[D] thought the {A5}[A]sun would shine{E5}[E] tommorow
But it{B5}[Bb] rained...


[solo- Guitar Part] 
--------------------------------------------------------------------|
--------------------------------------------------------------------|
-/14-\16-16-16^--13-14--11-13-14-16-14-p-13-11-9-13------8-9-9-6----|
--------------------------------------------------------------------|
--------------------------------------------------------------------|
--------------------------------------------------------------------|


Fast.. starting from \18


-----------------------------17--16-h-17--14-h-16--12-h-14----12\14-|
-------------------16-17-18--------------------------------14-------|
-6-4-3--------\18---------------------------------------------------|
-------6-4-3--------------------------------------------------------|
--------------------------------------------------------------------|
--------------------------------------------------------------------|




-16-14-16-17-17/19--21^-21^-21^-21^--19-17-16-17-17--19-17-16-17-17-|
--------------------------------------------------------------------|
--------------------------------------------------------------------|
--------------------------------------------------------------------|
--------------------------------------------------------------------|
--------------------------------------------------------------------|


-19-17-16-17-19^-19^---19-17-16/14--14/12--12/-------------19-19----|
------------------------------------------------14\16--17-----------|
--------------------------------------------------------------------|
--------------------------------------------------------------------|
--------------------------------------------------------------------|
--------------------------------------------------------------------|


-------19-19-------19-19---14-16-17-16-14\16-----16/14--------------|
-17-16-------16-14-------------------------------------16-14--------|
-------------------------------------------------------------16-14--|
--------------------------------------------------------------------|
--------------------------------------------------------------------|
--------------------------------------------------------------------|


-----------------------------14^--/12hold till fade-----------------|
----------------14\16-----------------------------------------------|
-13-h-14-p-13-------------------------------------------------------|
--------------------------------------------------------------------|
--------------------------------------------------------------------|
--------------------------------------------------------------------|


NOTE:
There are two guitar used. E5 and D5 will actually play by Electric Guitar.
{A5} : Electric Guitar Chords.
For Intro and Solo part use electric guitar with echo.
gosh! solo-2 was on net already!
P A R I K R A M A - But it Rained (Tabs, Chords and Solo) P A R I K R A M A - But it Rained (Tabs, Chords and Solo) Reviewed by Rahul Dhatwalia on 6:04 PM Rating: 5

No comments:

Powered by Blogger.